  0
SECTION
  2
HEADER
  9
$ACADVER
  1
AC1015
  9
$ACADMAINTVER
 70
     6
  9
$DWGCODEPAGE
  3
ANSI_1254
  9
$INSBASE
 10
0.0
 20
0.0
 30
0.0
  9
$EXTMIN
 10
0.0
 20
0.0
 30
0.0
  9
$EXTMAX
 10
279.4
 20
215.9
 30
0.0
  9
$LIMMIN
 10
0.0
 20
0.0
  9
$LIMMAX
 10
279.4
 20
215.9
  9
$ORTHOMODE
 70
     0
  9
$REGENMODE
 70
     1
  9
$FILLMODE
 70
     1
  9
$QTEXTMODE
 70
     0
  9
$MIRRTEXT
 70
     1
  9
$LTSCALE
 40
1.0
  9
$ATTMODE
 70
     1
  9
$TEXTSIZE
 40
3.5
  9
$TRACEWID
 40
1.0
  9
$TEXTSTYLE
  7
Standard
  9
$CLAYER
  8
0
  9
$CELTYPE
  6
ByLayer
  9
$CECOLOR
 62
   256
  9
$CELTSCALE
 40
1.0
  9
$DISPSILH
 70
     0
  9
$DIMSCALE
 40
1.0
  9
$DIMASZ
 40
3.5
  9
$DIMEXO
 40
1.0
  9
$DIMDLI
 40
3.75
  9
$DIMRND
 40
0.0
  9
$DIMDLE
 40
0.0
  9
$DIMEXE
 40
1.0
  9
$DIMTP
 40
0.0
  9
$DIMTM
 40
0.0
  9
$DIMTXT
 40
3.5
  9
$DIMCEN
 40
2.5
  9
$DIMTSZ
 40
0.0
  9
$DIMTOL
 70
     0
  9
$DIMLIM
 70
     0
  9
$DIMTIH
 70
     1
  9
$DIMTOH
 70
     1
  9
$DIMSE1
 70
     0
  9
$DIMSE2
 70
     0
  9
$DIMTAD
 70
     1
  9
$DIMZIN
 70
     0
  9
$DIMBLK
  1

  9
$DIMASO
 70
     1
  9
$DIMSHO
 70
     1
  9
$DIMPOST
  1

  9
$DIMAPOST
  1

  9
$DIMALT
 70
     0
  9
$DIMALTD
 70
     3
  9
$DIMALTF
 40
0.0393700787
  9
$DIMLFAC
 40
1.0
  9
$DIMTOFL
 70
     1
  9
$DIMTVP
 40
0.0
  9
$DIMTIX
 70
     0
  9
$DIMSOXD
 70
     0
  9
$DIMSAH
 70
     0
  9
$DIMBLK1
  1

  9
$DIMBLK2
  1

  9
$DIMSTYLE
  2
ISO-25
  9
$DIMCLRD
 70
     0
  9
$DIMCLRE
 70
     0
  9
$DIMCLRT
 70
     0
  9
$DIMTFAC
 40
1.0
  9
$DIMGAP
 40
1.524
  9
$DIMJUST
 70
     0
  9
$DIMSD1
 70
     0
  9
$DIMSD2
 70
     0
  9
$DIMTOLJ
 70
     0
  9
$DIMTZIN
 70
     0
  9
$DIMALTZ
 70
     0
  9
$DIMALTTZ
 70
     0
  9
$DIMUPT
 70
     0
  9
$DIMDEC
 70
     2
  9
$DIMTDEC
 70
     2
  9
$DIMALTU
 70
     2
  9
$DIMALTTD
 70
     3
  9
$DIMTXSTY
  7
Standard
  9
$DIMAUNIT
 70
     0
  9
$DIMADEC
 70
     2
  9
$DIMALTRND
 40
0.0
  9
$DIMAZIN
 70
     0
  9
$DIMDSEP
 70
    44
  9
$DIMATFIT
 70
     3
  9
$DIMFRAC
 70
     0
  9
$DIMLDRBLK
  1

  9
$DIMLUNIT
 70
     2
  9
$DIMLWD
 70
    -2
  9
$DIMLWE
 70
    -2
  9
$DIMTMOVE
 70
     0
  9
$LUNITS
 70
     2
  9
$LUPREC
 70
     2
  9
$SKETCHINC
 40
1.0
  9
$FILLETRAD
 40
10.0
  9
$AUNITS
 70
     0
  9
$AUPREC
 70
     2
  9
$MENU
  1
.
  9
$ELEVATION
 40
0.0
  9
$PELEVATION
 40
0.0
  9
$THICKNESS
 40
0.0
  9
$LIMCHECK
 70
     0
  9
$CHAMFERA
 40
0.0
  9
$CHAMFERB
 40
0.0
  9
$CHAMFERC
 40
0.0
  9
$CHAMFERD
 40
0.0
  9
$SKPOLY
 70
     0
  9
$TDCREATE
 40
2458985.699771505
  9
$TDUCREATE
 40
2458985.574771505
  9
$TDUPDATE
 40
2458985.699771771
  9
$TDUUPDATE
 40
2458985.574771771
  9
$TDINDWG
 40
0.0000000116
  9
$TDUSRTIMER
 40
0.0000000116
  9
$USRTIMER
 70
     1
  9
$ANGBASE
 50
0.0
  9
$ANGDIR
 70
     0
  9
$PDMODE
 70
     0
  9
$PDSIZE
 40
-1.0
  9
$PLINEWID
 40
0.0
  9
$SPLFRAME
 70
     0
  9
$SPLINETYPE
 70
     6
  9
$SPLINESEGS
 70
     8
  9
$HANDSEED
  5
F1
  9
$SURFTAB1
 70
     6
  9
$SURFTAB2
 70
     6
  9
$SURFTYPE
 70
     6
  9
$SURFU
 70
     6
  9
$SURFV
 70
     6
  9
$UCSBASE
  2

  9
$UCSNAME
  2

  9
$UCSORG
 10
0.0
 20
0.0
 30
0.0
  9
$UCSXDIR
 10
1.0
 20
0.0
 30
0.0
  9
$UCSYDIR
 10
0.0
 20
1.0
 30
0.0
  9
$UCSORTHOREF
  2

  9
$UCSORTHOVIEW
 70
     0
  9
$UCSORGTOP
 10
0.0
 20
0.0
 30
0.0
  9
$UCSORGBOTTOM
 10
0.0
 20
0.0
 30
0.0
  9
$UCSORGLEFT
 10
0.0
 20
0.0
 30
0.0
  9
$UCSORGRIGHT
 10
0.0
 20
0.0
 30
0.0
  9
$UCSORGFRONT
 10
0.0
 20
0.0
 30
0.0
  9
$UCSORGBACK
 10
0.0
 20
0.0
 30
0.0
  9
$PUCSBASE
  2

  9
$PUCSNAME
  2

  9
$PUCSORG
 10
0.0
 20
0.0
 30
0.0
  9
$PUCSXDIR
 10
1.0
 20
0.0
 30
0.0
  9
$PUCSYDIR
 10
0.0
 20
1.0
 30
0.0
  9
$PUCSORTHOREF
  2

  9
$PUCSORTHOVIEW
 70
     0
  9
$PUCSORGTOP
 10
0.0
 20
0.0
 30
0.0
  9
$PUCSORGBOTTOM
 10
0.0
 20
0.0
 30
0.0
  9
$PUCSORGLEFT
 10
0.0
 20
0.0
 30
0.0
  9
$PUCSORGRIGHT
 10
0.0
 20
0.0
 30
0.0
  9
$PUCSORGFRONT
 10
0.0
 20
0.0
 30
0.0
  9
$PUCSORGBACK
 10
0.0
 20
0.0
 30
0.0
  9
$USERI1
 70
     0
  9
$USERI2
 70
     0
  9
$USERI3
 70
     0
  9
$USERI4
 70
     0
  9
$USERI5
 70
     0
  9
$USERR1
 40
0.0
  9
$USERR2
 40
0.0
  9
$USERR3
 40
0.0
  9
$USERR4
 40
0.0
  9
$USERR5
 40
0.0
  9
$WORLDVIEW
 70
     1
  9
$SHADEDGE
 70
     3
  9
$SHADEDIF
 70
    70
  9
$TILEMODE
 70
     1
  9
$MAXACTVP
 70
    64
  9
$PINSBASE
 10
0.0
 20
0.0
 30
0.0
  9
$PLIMCHECK
 70
     0
  9
$PEXTMIN
 10
1.0000000000E+20
 20
1.0000000000E+20
 30
1.0000000000E+20
  9
$PEXTMAX
 10
-1.0000000000E+20
 20
-1.0000000000E+20
 30
-1.0000000000E+20
  9
$PLIMMIN
 10
0.0
 20
0.0
  9
$PLIMMAX
 10
420.0
 20
297.0
  9
$UNITMODE
 70
     0
  9
$VISRETAIN
 70
     1
  9
$PLINEGEN
 70
     0
  9
$PSLTSCALE
 70
     1
  9
$TREEDEPTH
 70
  3020
  9
$CMLSTYLE
  2
Standard
  9
$CMLJUST
 70
     0
  9
$CMLSCALE
 40
20.0
  9
$PROXYGRAPHICS
 70
     1
  9
$MEASUREMENT
 70
     1
  9
$CELWEIGHT
370
    -1
  9
$ENDCAPS
280
     0
  9
$JOINSTYLE
280
     0
  9
$LWDISPLAY
290
     1
  9
$INSUNITS
 70
     4
  9
$HYPERLINKBASE
  1

  9
$STYLESHEET
  1

  9
$XEDIT
290
     1
  9
$CEPSNTYPE
380
     0
  9
$PSTYLEMODE
290
     1
  9
$FINGERPRINTGUID
  2
{6fd99993-0231-4301-be1b-da22ecaf56dd}
  9
$VERSIONGUID
  2
{FAEB1C32-E019-11D5-929B-00C0DF256EC4}
  9
$EXTNAMES
290
     1
  9
$PSVPSCALE
 40
0.0
  9
$OLESTARTUP
290
     0
  0
ENDSEC
  0
SECTION
  2
CLASSES
  0
CLASS
  1
ACDBDICTIONARYWDFLT
  2
AcDbDictionaryWithDefault
  3
ObjectDBX Classes
 90
        0
280
     0
281
     0
  0
CLASS
  1
VISUALSTYLE
  2
AcDbVisualStyle
  3
ObjectDBX Classes
 90
     4095
280
     0
281
     0
  0
CLASS
  1
MATERIAL
  2
AcDbMaterial
  3
ObjectDBX Classes
 90
     1153
280
     0
281
     0
  0
CLASS
  1
SCALE
  2
AcDbScale
  3
ObjectDBX Classes
 90
     1153
280
     0
281
     0
  0
CLASS
  1
TABLESTYLE
  2
AcDbTableStyle
  3
ObjectDBX Classes
 90
     4095
280
     0
281
     0
  0
CLASS
  1
MLEADERSTYLE
  2
AcDbMLeaderStyle
  3
ACDB_MLEADERSTYLE_CLASS
 90
     4095
280
     0
281
     0
  0
CLASS
  1
SUN
  2
AcDbSun
  3
SCENEOE
 90
     1153
280
     0
281
     0
  0
CLASS
  1
ACDBPLACEHOLDER
  2
AcDbPlaceHolder
  3
ObjectDBX Classes
 90
        0
280
     0
281
     0
  0
CLASS
  1
LAYOUT
  2
AcDbLayout
  3
ObjectDBX Classes
 90
        0
280
     0
281
     0
  0
ENDSEC
  0
SECTION
  2
TABLES
  0
TABLE
  2
VPORT
  5
8
330
0
100
AcDbSymbolTable
 70
     1
  0
VPORT
  5
29
330
8
100
AcDbSymbolTableRecord
100
AcDbViewportTableRecord
  2
*Active
 70
     0
 10
0.0
 20
0.0
 11
1.0
 21
1.0
 12
139.7
 22
107.95
 13
0.0
 23
0.0
 14
10.0
 24
10.0
 15
10.0
 25
10.0
 16
0.0
 26
0.0
 36
1.0
 17
0.0
 27
0.0
 37
0.0
 40
215.9
 41
1.2941176471
 42
50.0
 43
0.0
 44
0.0
 50
0.0
 51
0.0
 71
     0
 72
  2000
 73
     1
 74
     3
 75
     0
 76
     0
 77
     0
 78
     0
281
     0
 65
     1
110
0.0
120
0.0
130
0.0
111
1.0
121
0.0
131
0.0
112
0.0
122
1.0
132
0.0
 79
     0
146
0.0
  0
ENDTAB
  0
TABLE
  2
LTYPE
  5
5
330
0
100
AcDbSymbolTable
 70
     6
  0
LTYPE
  5
14
330
5
100
AcDbSymbolTableRecord
100
AcDbLinetypeTableRecord
  2
ByBlock
 70
     0
  3

 72
    65
 73
     0
 40
0.0
  0
LTYPE
  5
15
330
5
100
AcDbSymbolTableRecord
100
AcDbLinetypeTableRecord
  2
ByLayer
 70
     0
  3

 72
    65
 73
     0
 40
0.0
  0
LTYPE
  5
16
330
5
100
AcDbSymbolTableRecord
100
AcDbLinetypeTableRecord
  2
Continuous
 70
     0
  3
Solid line
 72
    65
 73
     0
 40
0.0
  0
LTYPE
  5
6E
330
5
100
AcDbSymbolTableRecord
100
AcDbLinetypeTableRecord
  2
HIDDEN
 70
     0
  3
Hidden __ __ __ __ __ __ __ __ __ __ __ __ __ __
 72
    65
 73
     2
 40
1.905
 49
1.27
 74
     0
 49
-0.635
 74
     0
  0
LTYPE
  5
6F
330
5
100
AcDbSymbolTableRecord
100
AcDbLinetypeTableRecord
  2
PHANTOM
 70
     0
  3
Phantom ______  __  __  ______  __  __  ______
 72
    65
 73
     6
 40
12.7
 49
6.35
 74
     0
 49
-1.27
 74
     0
 49
1.27
 74
     0
 49
-1.27
 74
     0
 49
1.27
 74
     0
 49
-1.27
 74
     0
  0
LTYPE
  5
70
330
5
100
AcDbSymbolTableRecord
100
AcDbLinetypeTableRecord
  2
CENTER
 70
     0
  3
Center ____ _ ____ _ ____ _ ____ _ ____ _ ____
 72
    65
 73
     4
 40
10.16
 49
6.35
 74
     0
 49
-1.27
 74
     0
 49
1.27
 74
     0
 49
-1.27
 74
     0
  0
LTYPE
  5
71
330
5
100
AcDbSymbolTableRecord
100
AcDbLinetypeTableRecord
  2
CENTERX2
 70
     0
  3
Center (2x) ________  __  ________  __  _____
 72
    65
 73
     4
 40
20.32
 49
12.7
 74
     0
 49
-2.54
 74
     0
 49
2.54
 74
     0
 49
-2.54
 74
     0
  0
LTYPE
  5
72
330
5
100
AcDbSymbolTableRecord
100
AcDbLinetypeTableRecord
  2
DOT2
 70
     0
  3
Dot (.5x) ........................................
 72
    65
 73
     2
 40
0.635
 49
0.0
 74
     0
 49
-0.635
 74
     0
  0
ENDTAB
  0
TABLE
  2
LAYER
  5
2
330
0
100
AcDbSymbolTable
 70
    17
  0
LAYER
  5
10
330
2
100
AcDbSymbolTableRecord
100
AcDbLayerTableRecord
  2
0
 70
     0
 62
     7
  6
Continuous
370
    -3
390
F
  0
LAYER
  5
73
330
2
100
AcDbSymbolTableRecord
100
AcDbLayerTableRecord
  2
FORMAT
 70
     0
 62
     7
  6
Continuous
370
    -3
390
F
  0
LAYER
  5
74
330
2
100
AcDbSymbolTableRecord
100
AcDbLayerTableRecord
  2
YARDIMCI_GEOMETRI
 70
     0
 62
    -6
  6
Continuous
290
     0
370
    -3
390
F
  0
LAYER
  5
75
330
2
100
AcDbSymbolTableRecord
100
AcDbLayerTableRecord
  2
SAYFA_CERCEVESI
 70
     0
 62
     7
  6
Continuous
370
    25
390
F
  0
LAYER
  5
76
330
2
100
AcDbSymbolTableRecord
100
AcDbLayerTableRecord
  2
ANTET
 70
     0
 62
     7
  6
Continuous
370
    -3
390
F
  0
LAYER
  5
77
330
2
100
AcDbSymbolTableRecord
100
AcDbLayerTableRecord
  2
OLCU
 70
     0
 62
   150
  6
Continuous
370
    -3
390
F
  0
LAYER
  5
78
330
2
100
AcDbSymbolTableRecord
100
AcDbLayerTableRecord
  2
METIN
 70
     0
 62
    96
  6
Continuous
370
    -3
390
F
  0
LAYER
  5
79
330
2
100
AcDbSymbolTableRecord
100
AcDbLayerTableRecord
  2
BALON
 70
     0
 62
     5
  6
Continuous
370
    -3
390
F
  0
LAYER
  5
7A
330
2
100
AcDbSymbolTableRecord
100
AcDbLayerTableRecord
  2
VURGU
 70
     0
 62
     7
  6
Continuous
370
    -3
390
F
  0
LAYER
  5
7B
330
2
100
AcDbSymbolTableRecord
100
AcDbLayerTableRecord
  2
SILIK
 70
     0
 62
     7
  6
Continuous
370
    -3
390
F
  0
LAYER
  5
7C
330
2
100
AcDbSymbolTableRecord
100
AcDbLayerTableRecord
  2
MODEL
 70
     0
 62
     7
  6
Continuous
370
    -3
390
F
  0
LAYER
  5
7D
330
2
100
AcDbSymbolTableRecord
100
AcDbLayerTableRecord
  2
DETAYLANDıRMA
 70
     0
 62
   190
  6
Continuous
370
    -3
390
F
  0
LAYER
  5
7E
330
2
100
AcDbSymbolTableRecord
100
AcDbLayerTableRecord
  2
TOLERANS
 70
     0
 62
   230
  6
Continuous
370
    -3
390
F
  0
LAYER
  5
7F
330
2
100
AcDbSymbolTableRecord
100
AcDbLayerTableRecord
  2
MERKEZ_CIZGILERI
 70
     0
 62
    30
  6
Continuous
370
    -3
390
F
  0
LAYER
  5
80
330
2
100
AcDbSymbolTableRecord
100
AcDbLayerTableRecord
  2
KESIT-DETAY_CIZGILERI
 70
     0
 62
     7
  6
Continuous
370
    -3
390
F
  0
LAYER
  5
81
330
2
100
AcDbSymbolTableRecord
100
AcDbLayerTableRecord
  2
\U+041E\U+0421\U+0415\U+0412\U+042B\U+0415
 70
     0
 62
     7
  6
Continuous
370
    -3
390
F
  0
LAYER
  5
82
330
2
100
AcDbSymbolTableRecord
100
AcDbLayerTableRecord
  2
\U+0412\U+041E\U+0414\U+042F\U+041D\U+042B\U+0415_\U+0417\U+041D\U+0410\U+041A\U+0418
 70
     0
 62
    11
  6
Continuous
370
    -3
390
F
  0
ENDTAB
  0
TABLE
  2
STYLE
  5
3
330
0
100
AcDbSymbolTable
 70
     1
  0
STYLE
  5
11
330
3
100
AcDbSymbolTableRecord
100
AcDbTextStyleTableRecord
  2
Standard
 70
     0
 40
0.0
 41
1.0
 50
0.0
 71
     0
 42
3.5
  3
txt
  4

  0
ENDTAB
  0
TABLE
  2
VIEW
  5
6
330
0
100
AcDbSymbolTable
 70
     0
  0
ENDTAB
  0
TABLE
  2
UCS
  5
7
330
0
100
AcDbSymbolTable
 70
     0
  0
ENDTAB
  0
TABLE
  2
APPID
  5
9
330
0
100
AcDbSymbolTable
 70
     1
  0
APPID
  5
12
330
9
100
AcDbSymbolTableRecord
100
AcDbRegAppTableRecord
  2
ACAD
 70
     0
  0
ENDTAB
  0
TABLE
  2
DIMSTYLE
  5
A
330
0
100
AcDbSymbolTable
 70
     1
100
AcDbDimStyleTable
  0
DIMSTYLE
105
27
330
A
100
AcDbSymbolTableRecord
100
AcDbDimStyleTableRecord
  2
ISO-25
 70
     0
 41
2.5
 42
0.625
 43
3.75
 44
1.25
 73
     0
 74
     0
 77
     1
 78
     8
140
2.5
141
2.5
143
0.0393700787
147
0.625
171
     3
172
     1
178
     0
271
     2
272
     2
274
     3
278
    44
283
     0
284
     8
340
11
  0
ENDTAB
  0
TABLE
  2
BLOCK_RECORD
  5
1
330
0
100
AcDbSymbolTable
 70
     2
  0
BLOCK_RECORD
  5
1F
330
1
100
AcDbSymbolTableRecord
100
AcDbBlockTableRecord
  2
*Model_Space
340
22
  0
BLOCK_RECORD
  5
1B
330
1
100
AcDbSymbolTableRecord
100
AcDbBlockTableRecord
  2
*Paper_Space
340
1E
  0
BLOCK_RECORD
  5
23
330
1
100
AcDbSymbolTableRecord
100
AcDbBlockTableRecord
  2
*Paper_Space0
340
26
  0
BLOCK_RECORD
  5
88
330
1
100
AcDbSymbolTableRecord
100
AcDbBlockTableRecord
  2
SW_CENTERMARKSYMBOL_0
340
0
102
{BLKREFS
331
93
102
}
  0
ENDTAB
  0
ENDSEC
  0
SECTION
  2
BLOCKS
  0
BLOCK
  5
20
330
1F
100
AcDbEntity
  8
0
100
AcDbBlockBegin
  2
*Model_Space
 70
     0
 10
0.0
 20
0.0
 30
0.0
  3
*Model_Space
  1

  0
ENDBLK
  5
21
330
1F
100
AcDbEntity
  8
0
100
AcDbBlockEnd
  0
BLOCK
  5
1C
330
1B
100
AcDbEntity
 67
     1
  8
0
100
AcDbBlockBegin
  2
*Paper_Space
 70
     0
 10
0.0
 20
0.0
 30
0.0
  3
*Paper_Space
  1

  0
ENDBLK
  5
1D
330
1B
100
AcDbEntity
 67
     1
  8
0
100
AcDbBlockEnd
  0
BLOCK
  5
24
330
23
100
AcDbEntity
  8
0
100
AcDbBlockBegin
  2
*Paper_Space0
 70
     0
 10
0.0
 20
0.0
 30
0.0
  3
*Paper_Space0
  1

  0
ENDBLK
  5
25
330
23
100
AcDbEntity
  8
0
100
AcDbBlockEnd
  0
BLOCK
  5
89
330
88
100
AcDbEntity
  8
0
100
AcDbBlockBegin
  2
SW_CENTERMARKSYMBOL_0
 70
     0
 10
0.0
 20
0.0
 30
0.0
  3
SW_CENTERMARKSYMBOL_0
  1

  0
LINE
  5
8B
330
88
100
AcDbEntity
  8
FORMAT
 62
     0
100
AcDbLine
 10
0.0
 20
0.0
 30
0.0
 11
0.0
 21
2.5
 31
0.0
  0
LINE
  5
8C
330
88
100
AcDbEntity
  8
FORMAT
 62
     0
100
AcDbLine
 10
0.0
 20
0.0
 30
0.0
 11
-2.5
 21
0.0
 31
0.0
  0
LINE
  5
8D
330
88
100
AcDbEntity
  8
FORMAT
 62
     0
100
AcDbLine
 10
0.0
 20
0.0
 30
0.0
 11
0.0
 21
-2.5
 31
0.0
  0
LINE
  5
8E
330
88
100
AcDbEntity
  8
FORMAT
 62
     0
100
AcDbLine
 10
0.0
 20
0.0
 30
0.0
 11
2.5
 21
0.0
 31
0.0
  0
LINE
  5
8F
330
88
100
AcDbEntity
  8
FORMAT
 62
     0
100
AcDbLine
 10
0.0
 20
5.0
 30
0.0
 11
0.0
 21
142.5
 31
0.0
  0
LINE
  5
90
330
88
100
AcDbEntity
  8
FORMAT
 62
     0
100
AcDbLine
 10
-5.0
 20
0.0
 30
0.0
 11
-142.5
 21
0.0
 31
0.0
  0
LINE
  5
91
330
88
100
AcDbEntity
  8
FORMAT
 62
     0
100
AcDbLine
 10
0.0
 20
-5.0
 30
0.0
 11
0.0
 21
-142.5
 31
0.0
  0
LINE
  5
92
330
88
100
AcDbEntity
  8
FORMAT
 62
     0
100
AcDbLine
 10
5.0
 20
0.0
 30
0.0
 11
142.5
 21
0.0
 31
0.0
  0
ENDBLK
  5
8A
330
88
100
AcDbEntity
  8
0
100
AcDbBlockEnd
  0
ENDSEC
  0
SECTION
  2
ENTITIES
  0
CIRCLE
  5
83
330
1F
100
AcDbEntity
  8
0
  6
Continuous
 62
     7
370
    25
100
AcDbCircle
 10
139.395004093
 20
107.5851680021
 30
0.0
 40
140.0
  0
CIRCLE
  5
84
330
1F
100
AcDbEntity
  8
0
  6
Continuous
 62
     7
370
    25
100
AcDbCircle
 10
139.395004093
 20
107.5851680021
 30
0.0
 40
114.6
  0
CIRCLE
  5
85
330
1F
100
AcDbEntity
  8
0
  6
Continuous
 62
     7
370
    25
100
AcDbCircle
 10
139.395004093
 20
107.5851680021
 30
0.0
 40
114.2224029614453
  0
CIRCLE
  5
86
330
1F
100
AcDbEntity
  8
0
  6
Continuous
 62
     7
370
    25
100
AcDbCircle
 10
139.395004093
 20
107.5851680021
 30
0.0
 40
82.17759703855477
  0
CIRCLE
  5
87
330
1F
100
AcDbEntity
  8
0
  6
Continuous
 62
     7
370
    25
100
AcDbCircle
 10
139.395004093
 20
107.5851680021
 30
0.0
 40
81.80000000000004
  0
INSERT
  5
93
330
1F
100
AcDbEntity
  8
FORMAT
 62
     7
100
AcDbBlockReference
  2
SW_CENTERMARKSYMBOL_0
 10
139.395004093
 20
107.5851680021
 30
0.0
  0
ARC
  5
94
330
1F
100
AcDbEntity
  8
0
  6
Continuous
 62
     7
370
    25
100
AcDbCircle
 10
-324.0795541265
 20
245.5851680021
 30
0.0
 40
2.0
100
AcDbArc
 50
67.5901626285
 51
90.0
  0
ARC
  5
95
330
1F
100
AcDbEntity
  8
0
  6
Continuous
 62
     7
370
    25
100
AcDbCircle
 10
-324.0795541265
 20
-30.4148319979
 30
0.0
 40
2.000000000000004
100
AcDbArc
 50
270.0
 51
292.4098373715
  0
LINE
  5
96
330
1F
100
AcDbEntity
  8
0
  6
Continuous
 62
     7
370
    25
100
AcDbLine
 10
-324.0795530649
 20
247.5851685982
 30
0.0
 11
-462.6833707365
 21
247.5851685982
 31
0.0
  0
LINE
  5
97
330
1F
100
AcDbEntity
  8
0
  6
Continuous
 62
     7
370
    25
100
AcDbLine
 10
-462.6833707365
 20
-32.4148325939
 30
0.0
 11
-324.0795530649
 21
-32.4148325939
 31
0.0
  0
LINE
  5
98
330
1F
100
AcDbEntity
  8
0
  6
Continuous
 62
     7
370
    25
100
AcDbLine
 10
-323.3170941742
 20
-32.2637944241
 30
0.0
 11
-227.0496323975
 21
7.4341283421
 31
0.0
  0
LINE
  5
99
330
1F
100
AcDbEntity
  8
0
  6
Continuous
 62
     7
370
    25
100
AcDbLine
 10
-227.0496323975
 20
207.7362076621
 30
0.0
 11
-323.3170941742
 21
247.4341304283
 31
0.0
  0
ARC
  5
9A
330
1F
100
AcDbEntity
  8
0
  6
Continuous
 62
     7
370
    25
100
AcDbCircle
 10
-226.2871759404
 20
209.5851680021
 30
0.0
 40
2.000000000000028
100
AcDbArc
 50
247.5901626285
 51
270.0
  0
ARC
  5
9B
330
1F
100
AcDbEntity
  8
0
  6
Continuous
 62
     7
370
    25
100
AcDbCircle
 10
-226.2871759404
 20
5.5851680021
 30
0.0
 40
2.000000000000006
100
AcDbArc
 50
90.0
 51
112.4098373715
  0
LINE
  5
9C
330
1F
100
AcDbEntity
  8
0
  6
Continuous
 62
     7
370
    25
100
AcDbLine
 10
-114.6833658489
 20
207.5851694922
 30
0.0
 11
-226.2871772321
 21
207.5851694922
 31
0.0
  0
LINE
  5
9D
330
1F
100
AcDbEntity
  8
0
  6
Continuous
 62
     7
370
    25
100
AcDbLine
 10
-226.2871772321
 20
7.585166512
 30
0.0
 11
-114.6833658489
 21
7.585166512
 31
0.0
  0
LINE
  5
9E
330
1F
100
AcDbEntity
  8
0
  6
Continuous
 62
     7
370
    25
100
AcDbLine
 10
-462.6833707365
 20
247.5851685982
 30
0.0
 11
-462.6833707365
 21
-32.4148325939
 31
0.0
  0
LINE
  5
9F
330
1F
100
AcDbEntity
  8
0
  6
Continuous
 62
     7
370
    25
100
AcDbLine
 10
-114.6833658489
 20
207.5851694922
 30
0.0
 11
-114.6833658489
 21
7.585166512
 31
0.0
  0
LINE
  5
A0
330
1F
100
AcDbEntity
  8
0
  6
Continuous
 62
     1
370
    25
100
AcDbLine
 10
-323.3170941742
 20
247.4341304283
 30
0.0
 11
-323.3170941742
 21
-32.2637944241
 31
0.0
  0
LINE
  5
A1
330
1F
100
AcDbEntity
  8
0
  6
Continuous
 62
     1
370
    25
100
AcDbLine
 10
-324.0795530649
 20
247.5851685982
 30
0.0
 11
-324.0795530649
 21
-32.4148325939
 31
0.0
  0
LINE
  5
A2
330
1F
100
AcDbEntity
  8
0
  6
Continuous
 62
     1
370
    25
100
AcDbLine
 10
-227.0496323975
 20
207.7362076621
 30
0.0
 11
-227.0496323975
 21
7.4341283421
 31
0.0
  0
LINE
  5
A3
330
1F
100
AcDbEntity
  8
0
  6
Continuous
 62
     1
370
    25
100
AcDbLine
 10
-226.2871772321
 20
207.5851694922
 30
0.0
 11
-226.2871772321
 21
7.585166512
 31
0.0
  0
ARC
  5
A4
330
1F
100
AcDbEntity
  8
0
  6
Continuous
 62
     7
370
    25
100
AcDbCircle
 10
592.9349715037
 20
-30.4148319979
 30
0.0
 40
2.000000000000016
100
AcDbArc
 50
247.5901626285
 51
270.0
  0
ARC
  5
A5
330
1F
100
AcDbEntity
  8
0
  6
Continuous
 62
     7
370
    25
100
AcDbCircle
 10
592.9349715037
 20
245.5851680021
 30
0.0
 40
2.000000000000019
100
AcDbArc
 50
90.0
 51
112.4098373715
  0
LINE
  5
A6
330
1F
100
AcDbEntity
  8
0
  6
Continuous
 62
     7
370
    25
100
AcDbLine
 10
592.9349704421
 20
-32.4148325939
 30
0.0
 11
731.5387881137
 21
-32.4148325939
 31
0.0
  0
LINE
  5
A7
330
1F
100
AcDbEntity
  8
0
  6
Continuous
 62
     7
370
    25
100
AcDbLine
 10
731.5387881137
 20
247.5851685982
 30
0.0
 11
592.9349704421
 21
247.5851685982
 31
0.0
  0
LINE
  5
A8
330
1F
100
AcDbEntity
  8
0
  6
Continuous
 62
     7
370
    25
100
AcDbLine
 10
592.1725115514
 20
247.4341304283
 30
0.0
 11
495.9050497747
 21
207.7362076621
 31
0.0
  0
LINE
  5
A9
330
1F
100
AcDbEntity
  8
0
  6
Continuous
 62
     7
370
    25
100
AcDbLine
 10
495.9050497747
 20
7.4341283421
 30
0.0
 11
592.1725115514
 21
-32.2637944241
 31
0.0
  0
ARC
  5
AA
330
1F
100
AcDbEntity
  8
0
  6
Continuous
 62
     7
370
    25
100
AcDbCircle
 10
495.1425933176
 20
5.5851680021
 30
0.0
 40
2.000000000000038
100
AcDbArc
 50
67.5901626285
 51
90.0
  0
ARC
  5
AB
330
1F
100
AcDbEntity
  8
0
  6
Continuous
 62
     7
370
    25
100
AcDbCircle
 10
495.1425933176
 20
209.5851680021
 30
0.0
 40
2.00000000000004
100
AcDbArc
 50
270.0
 51
292.4098373715
  0
LINE
  5
AC
330
1F
100
AcDbEntity
  8
0
  6
Continuous
 62
     7
370
    25
100
AcDbLine
 10
383.5387832261
 20
7.585166512
 30
0.0
 11
495.1425946093
 21
7.585166512
 31
0.0
  0
LINE
  5
AD
330
1F
100
AcDbEntity
  8
0
  6
Continuous
 62
     7
370
    25
100
AcDbLine
 10
495.1425946093
 20
207.5851694922
 30
0.0
 11
383.5387832261
 21
207.5851694922
 31
0.0
  0
LINE
  5
AE
330
1F
100
AcDbEntity
  8
0
  6
Continuous
 62
     7
370
    25
100
AcDbLine
 10
731.5387881137
 20
107.5851680021
 30
0.0
 11
731.5387881137
 21
247.5851685982
 31
0.0
  0
LINE
  5
AF
330
1F
100
AcDbEntity
  8
0
  6
Continuous
 62
     7
370
    25
100
AcDbLine
 10
731.5387881137
 20
-32.4148325939
 30
0.0
 11
731.5387881137
 21
107.5851680021
 31
0.0
  0
LINE
  5
B0
330
1F
100
AcDbEntity
  8
0
  6
Continuous
 62
     7
370
    25
100
AcDbLine
 10
383.5387832261
 20
107.5851680021
 30
0.0
 11
383.5387832261
 21
207.5851694922
 31
0.0
  0
LINE
  5
B1
330
1F
100
AcDbEntity
  8
0
  6
Continuous
 62
     7
370
    25
100
AcDbLine
 10
383.5387832261
 20
7.585166512
 30
0.0
 11
383.5387832261
 21
107.5851680021
 31
0.0
  0
LINE
  5
B2
330
1F
100
AcDbEntity
  8
0
  6
Continuous
 62
     1
370
    25
100
AcDbLine
 10
592.1725115514
 20
107.5851680021
 30
0.0
 11
592.1725115514
 21
247.4341304283
 31
0.0
  0
LINE
  5
B3
330
1F
100
AcDbEntity
  8
0
  6
Continuous
 62
     1
370
    25
100
AcDbLine
 10
592.1725115514
 20
-32.2637944241
 30
0.0
 11
592.1725115514
 21
107.5851680021
 31
0.0
  0
LINE
  5
B4
330
1F
100
AcDbEntity
  8
0
  6
Continuous
 62
     1
370
    25
100
AcDbLine
 10
592.9349704421
 20
107.5851680021
 30
0.0
 11
592.9349704421
 21
247.5851685982
 31
0.0
  0
LINE
  5
B5
330
1F
100
AcDbEntity
  8
0
  6
Continuous
 62
     1
370
    25
100
AcDbLine
 10
592.9349704421
 20
-32.4148325939
 30
0.0
 11
592.9349704421
 21
107.5851680021
 31
0.0
  0
LINE
  5
B6
330
1F
100
AcDbEntity
  8
0
  6
Continuous
 62
     1
370
    25
100
AcDbLine
 10
495.9050497747
 20
107.5851680021
 30
0.0
 11
495.9050497747
 21
207.7362076621
 31
0.0
  0
LINE
  5
B7
330
1F
100
AcDbEntity
  8
0
  6
Continuous
 62
     1
370
    25
100
AcDbLine
 10
495.9050497747
 20
7.4341283421
 30
0.0
 11
495.9050497747
 21
107.5851680021
 31
0.0
  0
LINE
  5
B8
330
1F
100
AcDbEntity
  8
0
  6
Continuous
 62
     1
370
    25
100
AcDbLine
 10
495.1425946093
 20
107.5851680021
 30
0.0
 11
495.1425946093
 21
207.5851694922
 31
0.0
  0
LINE
  5
B9
330
1F
100
AcDbEntity
  8
0
  6
Continuous
 62
     1
370
    25
100
AcDbLine
 10
495.1425946093
 20
7.585166512
 30
0.0
 11
495.1425946093
 21
107.5851680021
 31
0.0
  0
ARC
  5
BA
330
1F
100
AcDbEntity
  8
0
  6
Continuous
 62
     7
370
    25
100
AcDbCircle
 10
277.395004093
 20
529.2731322123
 30
0.0
 40
2.0
100
AcDbArc
 50
337.5901626285
 51
0.0
  0
ARC
  5
BB
330
1F
100
AcDbEntity
  8
0
  6
Continuous
 62
     7
370
    25
100
AcDbCircle
 10
1.395004093
 20
529.2731322123
 30
0.0
 40
2.000000000000002
100
AcDbArc
 50
180.0
 51
202.4098373715
  0
LINE
  5
BC
330
1F
100
AcDbEntity
  8
0
  6
Continuous
 62
     7
370
    25
100
AcDbLine
 10
279.3950046891
 20
529.2731311507
 30
0.0
 11
279.3950046891
 21
667.8769488222
 31
0.0
  0
LINE
  5
BD
330
1F
100
AcDbEntity
  8
0
  6
Continuous
 62
     7
370
    25
100
AcDbLine
 10
-0.604996503
 20
667.8769488222
 30
0.0
 11
-0.604996503
 21
529.2731311507
 31
0.0
  0
LINE
  5
BE
330
1F
100
AcDbEntity
  8
0
  6
Continuous
 62
     7
370
    25
100
AcDbLine
 10
-0.4539583331
 20
528.51067226
 30
0.0
 11
39.2439644331
 21
432.2432104833
 31
0.0
  0
LINE
  5
BF
330
1F
100
AcDbEntity
  8
0
  6
Continuous
 62
     7
370
    25
100
AcDbLine
 10
239.546043753
 20
432.2432104833
 30
0.0
 11
279.2439665192
 21
528.51067226
 31
0.0
  0
ARC
  5
C0
330
1F
100
AcDbEntity
  8
0
  6
Continuous
 62
     7
370
    25
100
AcDbCircle
 10
241.395004093
 20
431.4807540262
 30
0.0
 40
2.000000000000019
100
AcDbArc
 50
157.5901626285
 51
180.0
  0
ARC
  5
C1
330
1F
100
AcDbEntity
  8
0
  6
Continuous
 62
     7
370
    25
100
AcDbCircle
 10
37.395004093
 20
431.4807540262
 30
0.0
 40
2.000000000000012
100
AcDbArc
 50
0.0
 51
22.4098373715
  0
LINE
  5
C2
330
1F
100
AcDbEntity
  8
0
  6
Continuous
 62
     7
370
    25
100
AcDbLine
 10
239.3950055832
 20
319.8769439346
 30
0.0
 11
239.3950055832
 21
431.4807553179
 31
0.0
  0
LINE
  5
C3
330
1F
100
AcDbEntity
  8
0
  6
Continuous
 62
     7
370
    25
100
AcDbLine
 10
39.3950026029
 20
431.4807553179
 30
0.0
 11
39.3950026029
 21
319.8769439346
 31
0.0
  0
LINE
  5
C4
330
1F
100
AcDbEntity
  8
0
  6
Continuous
 62
     7
370
    25
100
AcDbLine
 10
279.3950046891
 20
667.8769488222
 30
0.0
 11
-0.604996503
 21
667.8769488222
 31
0.0
  0
LINE
  5
C5
330
1F
100
AcDbEntity
  8
0
  6
Continuous
 62
     7
370
    25
100
AcDbLine
 10
239.3950055832
 20
319.8769439346
 30
0.0
 11
39.3950026029
 21
319.8769439346
 31
0.0
  0
LINE
  5
C6
330
1F
100
AcDbEntity
  8
0
  6
Continuous
 62
     1
370
    25
100
AcDbLine
 10
279.2439665192
 20
528.51067226
 30
0.0
 11
-0.4539583331
 21
528.51067226
 31
0.0
  0
LINE
  5
C7
330
1F
100
AcDbEntity
  8
0
  6
Continuous
 62
     1
370
    25
100
AcDbLine
 10
279.3950046891
 20
529.2731311507
 30
0.0
 11
-0.604996503
 21
529.2731311507
 31
0.0
  0
LINE
  5
C8
330
1F
100
AcDbEntity
  8
0
  6
Continuous
 62
     1
370
    25
100
AcDbLine
 10
239.546043753
 20
432.2432104833
 30
0.0
 11
39.2439644331
 21
432.2432104833
 31
0.0
  0
LINE
  5
C9
330
1F
100
AcDbEntity
  8
0
  6
Continuous
 62
     1
370
    25
100
AcDbLine
 10
239.3950055832
 20
431.4807553179
 30
0.0
 11
39.3950026029
 21
431.4807553179
 31
0.0
  0
ARC
  5
CA
330
1F
100
AcDbEntity
  8
0
  6
Continuous
 62
     7
370
    25
100
AcDbCircle
 10
1.395004093
 20
-336.4982590872
 30
0.0
 40
2.000000000000002
100
AcDbArc
 50
157.5901626285
 51
180.0
  0
ARC
  5
CB
330
1F
100
AcDbEntity
  8
0
  6
Continuous
 62
     7
370
    25
100
AcDbCircle
 10
277.395004093
 20
-336.4982590872
 30
0.0
 40
2.0
100
AcDbArc
 50
0.0
 51
22.4098373715
  0
LINE
  5
CC
330
1F
100
AcDbEntity
  8
0
  6
Continuous
 62
     7
370
    25
100
AcDbLine
 10
-0.604996503
 20
-336.4982580255
 30
0.0
 11
-0.604996503
 21
-475.1020756971
 31
0.0
  0
LINE
  5
CD
330
1F
100
AcDbEntity
  8
0
  6
Continuous
 62
     7
370
    25
100
AcDbLine
 10
279.3950046891
 20
-475.1020756971
 30
0.0
 11
279.3950046891
 21
-336.4982580255
 31
0.0
  0
LINE
  5
CE
330
1F
100
AcDbEntity
  8
0
  6
Continuous
 62
     7
370
    25
100
AcDbLine
 10
279.2439665192
 20
-335.7357991349
 30
0.0
 11
239.546043753
 21
-239.4683373581
 31
0.0
  0
LINE
  5
CF
330
1F
100
AcDbEntity
  8
0
  6
Continuous
 62
     7
370
    25
100
AcDbLine
 10
39.2439644331
 20
-239.4683373581
 30
0.0
 11
-0.4539583331
 21
-335.7357991349
 31
0.0
  0
ARC
  5
D0
330
1F
100
AcDbEntity
  8
0
  6
Continuous
 62
     7
370
    25
100
AcDbCircle
 10
37.395004093
 20
-238.7058809011
 30
0.0
 40
2.000000000000001
100
AcDbArc
 50
337.5901626285
 51
0.0
  0
ARC
  5
D1
330
1F
100
AcDbEntity
  8
0
  6
Continuous
 62
     7
370
    25
100
AcDbCircle
 10
241.395004093
 20
-238.7058809011
 30
0.0
 40
2.000000000000008
100
AcDbArc
 50
180.0
 51
202.4098373715
  0
LINE
  5
D2
330
1F
100
AcDbEntity
  8
0
  6
Continuous
 62
     7
370
    25
100
AcDbLine
 10
39.3950026029
 20
-127.1020708095
 30
0.0
 11
39.3950026029
 21
-238.7058821927
 31
0.0
  0
LINE
  5
D3
330
1F
100
AcDbEntity
  8
0
  6
Continuous
 62
     7
370
    25
100
AcDbLine
 10
239.3950055832
 20
-238.7058821927
 30
0.0
 11
239.3950055832
 21
-127.1020708095
 31
0.0
  0
LINE
  5
D4
330
1F
100
AcDbEntity
  8
0
  6
Continuous
 62
     7
370
    25
100
AcDbLine
 10
-0.604996503
 20
-475.1020756971
 30
0.0
 11
279.3950046891
 21
-475.1020756971
 31
0.0
  0
LINE
  5
D5
330
1F
100
AcDbEntity
  8
0
  6
Continuous
 62
     7
370
    25
100
AcDbLine
 10
39.3950026029
 20
-127.1020708095
 30
0.0
 11
239.3950055832
 21
-127.1020708095
 31
0.0
  0
LINE
  5
D6
330
1F
100
AcDbEntity
  8
0
  6
Continuous
 62
     1
370
    25
100
AcDbLine
 10
-0.4539583331
 20
-335.7357991349
 30
0.0
 11
279.2439665192
 21
-335.7357991349
 31
0.0
  0
LINE
  5
D7
330
1F
100
AcDbEntity
  8
0
  6
Continuous
 62
     1
370
    25
100
AcDbLine
 10
-0.604996503
 20
-336.4982580255
 30
0.0
 11
279.3950046891
 21
-336.4982580255
 31
0.0
  0
LINE
  5
D8
330
1F
100
AcDbEntity
  8
0
  6
Continuous
 62
     1
370
    25
100
AcDbLine
 10
39.2439644331
 20
-239.4683373581
 30
0.0
 11
239.546043753
 21
-239.4683373581
 31
0.0
  0
LINE
  5
D9
330
1F
100
AcDbEntity
  8
0
  6
Continuous
 62
     1
370
    25
100
AcDbLine
 10
39.3950026029
 20
-238.7058821927
 30
0.0
 11
239.3950055832
 21
-238.7058821927
 31
0.0
  0
LINE
  5
DA
330
1F
100
AcDbEntity
  8
0
  6
Continuous
 62
     7
370
    25
100
AcDbLine
 10
623.9485304999
 20
-135.5607344561
 30
0.0
 11
525.940831126
 21
-78.9820939178
 31
0.0
  0
LINE
  5
DB
330
1F
100
AcDbEntity
  8
0
  6
Continuous
 62
     7
370
    25
100
AcDbLine
 10
385.9522127496
 20
-321.475774313
 30
0.0
 11
483.9599121235
 21
-378.0544148513
 31
0.0
  0
SPLINE
  5
DC
330
1F
100
AcDbEntity
  8
0
  6
Continuous
 62
     7
370
    25
100
AcDbSpline
210
0.0
220
0.0
230
1.0
 70
     8
 71
     3
 72
    10
 73
     6
 74
     0
 42
0.000000001
 43
0.00000001
 40
0.0
 40
0.0
 40
0.0
 40
0.0
 40
0.0180697922397079
 40
0.7306495309497457
 40
1.0
 40
1.0
 40
1.0
 40
1.0
 10
636.3207484169568
 20
-145.7418511065703
 30
0.0
 10
636.2989444016014
 20
-145.7152487022579
 30
0.0
 10
635.4173020793827
 20
-144.639584191281
 30
0.0
 10
634.1048522466241
 20
-143.3001139312566
 30
0.0
 10
632.7400272501267
 20
-142.097715889516
 30
0.0
 10
632.365646005846
 20
-141.7678895189977
 30
0.0
  0
SPLINE
  5
DD
330
1F
100
AcDbEntity
  8
0
  6
Continuous
 62
     7
370
    25
100
AcDbSpline
210
0.0
220
0.0
230
1.0
 70
     8
 71
     3
 72
     9
 73
     5
 74
     0
 42
0.000000001
 43
0.00000001
 40
0.0
 40
0.0
 40
0.0
 40
0.0
 40
0.3306877056851329
 40
1.0
 40
1.0
 40
1.0
 40
1.0
 10
493.38697938945
 20
-382.1912701661103
 30
0.0
 10
493.7997000240944
 20
-382.3363472214068
 30
0.0
 10
495.0477676950386
 20
-382.7750604024603
 30
0.0
 10
496.3611562783793
 20
-383.0701870512893
 30
0.0
 10
497.2402234044221
 20
-383.2677189457304
 30
0.0
  0
LINE
  5
DE
330
1F
100
AcDbEntity
  8
0
  6
Continuous
 62
     7
370
    25
100
AcDbLine
 10
508.0061353627
 20
-384.7430722964
 30
0.0
 11
589.2735042689
 21
-387.812057904
 31
0.0
  0
LINE
  5
DF
330
1F
100
AcDbEntity
  8
0
  6
Continuous
 62
     7
370
    25
100
AcDbLine
 10
685.0637973566
 20
-221.8804265484
 30
0.0
 11
641.7658341192
 21
-153.0393712822
 31
0.0
  0
LINE
  5
E0
330
1F
100
AcDbEntity
  8
0
  6
Continuous
 62
     7
370
    25
100
AcDbLine
 10
752.0156203812
 20
-255.6790608431
 30
0.0
 11
680.272575228
 21
-214.2626824486
 31
0.0
  0
LINE
  5
E1
330
1F
100
AcDbEntity
  8
0
  6
Continuous
 62
     7
370
    25
100
AcDbLine
 10
580.2807049592
 20
-387.4724558976
 30
0.0
 11
652.0237501123
 21
-428.8888342922
 31
0.0
  0
ARC
  5
E2
330
1F
100
AcDbEntity
  8
0
  6
Continuous
 62
     7
370
    25
100
AcDbCircle
 10
600.2661850899
 20
-176.5237828308
 30
0.0
 40
47.31622149183731
100
AcDbArc
 50
47.6237753112
 51
59.9661083167
  0
ARC
  5
E3
330
1F
100
AcDbEntity
  8
0
  6
Continuous
 62
     7
370
    25
100
AcDbCircle
 10
507.6117985691
 20
-337.0099256748
 30
0.0
 40
47.37152967968968
100
AcDbArc
 50
240.0473035752
 51
252.1825592063
  0
LWPOLYLINE
  5
E4
330
1F
100
AcDbEntity
  8
0
  6
Continuous
 62
     7
370
    25
100
AcDbPolyline
 90
      126
 70
   128
 43
0.0
 10
356.9515721502
 20
-257.3775021863
 10
357.076611313
 20
-251.561603614
 10
357.4513916267
 20
-245.6160414157
 10
358.0749963973
 20
-239.555817537
 10
358.9458240445
 20
-233.3962562955
 10
360.0616829322
 20
-227.1529104727
 10
361.4197597584
 20
-220.8415518049
 10
363.0166090181
 20
-214.4781299176
 10
364.8482162239
 20
-208.0787054102
 10
366.9099452227
 20
-201.6594544144
 10
369.1965856101
 20
-195.2365895101
 10
371.7023685364
 20
-188.8263384341
 10
374.4209561692
 20
-182.4448862839
 10
377.3454838405
 20
-176.1083633543
 10
380.4685653152
 20
-169.8327690912
 10
383.7823085958
 20
-163.6339568847
 10
387.2783475329
 20
-157.5275854014
 10
390.9478470935
 20
-151.5290851255
 10
394.7815402391
 20
-145.6536005662
 10
398.7697437314
 20
-139.9159811343
 10
402.9023739367
 20
-134.3307172645
 10
407.1690047786
 20
-128.9119191279
 10
411.5588466638
 20
-123.6732679603
 10
416.0608202394
 20
-118.6280160695
 10
420.6635458563
 20
-113.7888773272
 10
425.3554015212
 20
-109.1681093047
 10
430.1245307986
 20
-104.7773627019
 10
434.9588889096
 20
-100.6277277398
 10
439.8462638047
 20
-96.7297098279
 10
444.7743104086
 20
-93.0931246232
 10
449.7305776203
 20
-89.7271797828
 10
454.7025474966
 20
-86.6403793392
 10
459.6776596179
 20
-83.840509634
 10
464.6433469795
 20
-81.3346429337
 10
469.5870649671
 20
-79.1291085344
 10
474.4963259304
 20
-77.2294971382
 10
479.3587275007
 20
-75.6405836685
 10
484.161990457
 20
-74.3663905822
 10
488.89397519
 20
-73.4101418634
 10
493.5427330681
 20
-72.7742455374
 10
498.0965209256
 20
-72.4603096417
 10
502.5438353071
 20
-72.469128541
 10
506.873438809
 20
-72.8006798881
 10
511.0743943242
 20
-73.4541291893
 10
515.1360966519
 20
-74.4278176404
 10
519.0482777661
 20
-75.7192955874
 10
522.8010594993
 20
-77.3252921129
 10
526.3849588105
 20
-79.2417545809
 10
529.7909299324
 20
-81.4638425567
 10
533.0103591027
 20
-83.985943016
 10
536.0351172482
 20
-86.8016825168
 10
538.8575652524
 20
-89.9039484936
 10
541.4705750297
 20
-93.2849014259
 10
543.8675453298
 20
-96.9360083006
 10
546.0424175434
 20
-100.8480395717
 10
547.989696775
 20
-105.0111178315
 10
549.7044729168
 20
-109.4147238965
 10
551.1824048434
 20
-114.0477333083
 10
552.4197625587
 20
-118.8984467557
 10
553.4134166592
 20
-123.9546068043
 10
554.1608699441
 20
-129.2034404849
 10
554.6602152686
 20
-134.6316942713
 10
554.9102093005
 20
-140.225648726
 10
554.9102093005
 20
-145.9711781904
 10
554.6602152686
 20
-151.8537696106
 10
554.1608699441
 20
-157.8585552368
 10
553.4134166592
 20
-163.9703801109
 10
552.4197625587
 20
-170.173788764
 10
551.1824048434
 20
-176.4531250204
 10
549.7044729168
 20
-182.7925183132
 10
547.989696775
 20
-189.1759627695
 10
546.0424175434
 20
-195.5873217741
 10
543.8675453298
 20
-202.0104070537
 10
541.4705750297
 20
-208.4289969295
 10
538.8575652524
 20
-214.8268667337
 10
536.0351172482
 20
-221.1878618122
 10
533.0103591027
 20
-227.4959127318
 10
529.7909299324
 20
-233.735086991
 10
526.3849588105
 20
-239.8896255196
 10
522.8010594993
 20
-245.943970055
 10
519.0482777661
 20
-251.882836142
 10
515.1360966519
 20
-257.6912222584
 10
511.0743943242
 20
-263.3544523973
 10
506.873438809
 20
-268.8582216944
 10
502.5438353071
 20
-274.1886268412
 10
498.0965209256
 20
-279.3322056289
 10
493.5427330681
 20
-284.2759612804
 10
488.89397519
 20
-289.0074065533
 10
484.161990457
 20
-293.5145911148
 10
479.3587275007
 20
-297.7861273937
 10
474.4963259304
 20
-301.8112232795
 10
469.5870649671
 20
-305.5797239423
 10
464.6433469795
 20
-309.0820848355
 10
459.6776596179
 20
-312.3094787271
 10
454.7025474966
 20
-315.2537512097
 10
449.7305776203
 20
-317.9074649949
 10
444.7743104086
 20
-320.2639044728
 10
439.8462638047
 20
-322.3171207662
 10
434.9588889096
 20
-324.0619457968
 10
430.1245307986
 20
-325.4939419013
 10
425.3554015212
 20
-326.6095147569
 10
420.6635458563
 20
-327.4058479788
 10
416.0608202394
 20
-327.880903118
 10
411.5588466638
 20
-328.0335192779
 10
407.1690047786
 20
-327.863271667
 10
402.9023739367
 20
-327.3706206444
 10
398.7697437314
 20
-326.5567900469
 10
394.7815402391
 20
-325.4238523538
 10
390.9478470935
 20
-323.9746556842
 10
387.2783475329
 20
-322.2128694199
 10
383.7823085958
 20
-320.1429385754
 10
380.4685653152
 20
-317.7700929226
 10
377.3454838405
 20
-315.1003317779
 10
374.4209561692
 20
-312.1403966249
 10
371.7023685364
 20
-308.8977589439
 10
369.1965856101
 20
-305.380623253
 10
366.9099452227
 20
-301.597857144
 10
364.8482162239
 20
-297.5590277814
 10
363.0166090181
 20
-293.2743319407
 10
361.4197597584
 20
-288.7545929647
 10
360.0616829322
 20
-284.0112364245
 10
358.9458240445
 20
-279.0562338503
 10
358.0749963973
 20
-273.902108809
 10
357.4513916267
 20
-268.5618836727
 10
357.076611313
 20
-263.0490336141
 10
356.9515721502
 20
-257.3775021863
  0
LWPOLYLINE
  5
E5
330
1F
100
AcDbEntity
  8
0
  6
Continuous
 62
     7
370
    25
100
AcDbPolyline
 90
      114
 70
   128
 43
0.0
 10
374.9120828582
 20
-247.0091200518
 10
375.0373222186
 20
-241.7363805974
 10
375.4126451729
 20
-236.3353448614
 10
376.0368926829
 20
-230.8227075571
 10
376.9081365303
 20
-225.2155055338
 10
378.0236793166
 20
-219.5310740507
 10
379.3800860739
 20
-213.7869749152
 10
380.9731473856
 20
-208.0009751876
 10
382.7979531438
 20
-202.1909483267
 10
384.8488504024
 20
-196.3748620195
 10
387.119511866
 20
-190.5706838894
 10
389.6029095474
 20
-184.7963571592
 10
392.2913779885
 20
-179.0697367784
 10
395.1765931869
 20
-173.4085133747
 10
398.2496516207
 20
-167.8301950102
 10
401.5010439073
 20
-162.3520128818
 10
404.9207232917
 20
-156.9909122017
 10
408.4981214515
 20
-151.7634579019
 10
412.2221801074
 20
-146.6858042185
 10
416.0813879014
 20
-141.7736490672
 10
420.0638172755
 20
-137.0421823356
 10
424.1571587155
 20
-132.5060174445
 10
428.3487576303
 20
-128.1791761421
 10
432.6256617665
 20
-124.075042881
 10
436.9746462333
 20
-120.2062956179
 10
441.3822740885
 20
-116.5848890896
 10
445.8349180707
 20
-113.2220240161
 10
450.3188165752
 20
-110.1280965349
 10
454.8201104505
 20
-107.3126587082
 10
459.3248858861
 20
-104.7844241827
 10
463.819218699
 20
-102.5512061209
 10
468.2892173046
 20
-100.619898479
 10
472.7210664268
 20
-98.9964811914
 10
477.1010657057
 20
-97.6859613812
 10
481.4156781005
 20
-96.692400171
 10
485.6515654505
 20
-96.0188678187
 10
489.7956358911
 20
-95.6674345968
 10
493.8350820486
 20
-95.6392034957
 10
497.7574179192
 20
-95.9342463483
 10
501.5505183814
 20
-96.5516601077
 10
505.2026534403
 20
-97.4895409953
 10
508.7025488141
 20
-98.7449738592
 10
512.0393727626
 20
-100.3140945317
 10
515.2028203814
 20
-102.1920411669
 10
518.1831083333
 20
-104.3730181198
 10
520.9710275319
 20
-106.8502776992
 10
523.5579589467
 20
-109.6161657981
 10
525.9359104814
 20
-112.6621310217
 10
528.0975222428
 20
-115.9787672743
 10
530.036124492
 20
-119.5558076811
 10
531.7457218397
 20
-123.3822067165
 10
533.2210248567
 20
-127.4461371654
 10
534.4574764147
 20
-131.7350327111
 10
535.4512569558
 20
-136.2356381273
 10
536.1992897598
 20
-140.9340457797
 10
536.699267287
 20
-145.8157306108
 10
536.9496459089
 20
-150.8656005191
 10
536.9496459089
 20
-156.0680514935
 10
536.699267287
 20
-161.4070024055
 10
536.1992897598
 20
-166.865949002
 10
535.4512569558
 20
-172.4280169465
 10
534.4574764147
 20
-178.0760169524
 10
533.2210248567
 20
-183.7924890802
 10
531.7457218397
 20
-189.5597681356
 10
530.036124492
 20
-195.360026254
 10
528.0975222428
 20
-201.175329175
 10
525.9359104814
 20
-206.9877092439
 10
523.5579589467
 20
-212.7791988693
 10
520.9710275319
 20
-218.5318944037
 10
518.1831083333
 20
-224.2280169744
 10
515.2028203814
 20
-229.8499611535
 10
512.0393727626
 20
-235.3803466651
 10
508.7025488141
 20
-240.8020822633
 10
505.2026534403
 20
-246.098408313
 10
501.5505183814
 20
-251.2529545853
 10
497.7574179192
 20
-256.2497889198
 10
493.8350820486
 20
-261.0734643739
 10
489.7956358911
 20
-265.7090785335
 10
485.6515654505
 20
-270.1422871984
 10
481.4156781005
 20
-274.35940628
 10
477.1010657057
 20
-278.3473905055
 10
472.7210664268
 20
-282.0939102206
 10
468.2892173046
 20
-285.5873970132
 10
463.819218699
 20
-288.8170399074
 10
459.3248858861
 20
-291.7728680595
 10
454.8201104505
 20
-294.4457365433
 10
450.3188165752
 20
-296.827382002
 10
445.8349180707
 20
-298.9104535386
 10
441.3822740885
 20
-300.6885017794
 10
436.9746462333
 20
-302.1560340517
 10
432.6256617665
 20
-303.308517374
 10
428.3487576303
 20
-304.1423925201
 10
424.1571587155
 20
-304.6550683127
 10
420.0638172755
 20
-304.844974851
 10
416.0813879014
 20
-304.7115232032
 10
412.2221801074
 20
-304.2551145277
 10
408.4981214515
 20
-303.4771674466
 10
404.9207232917
 20
-302.3800891446
 10
401.5010439073
 20
-300.9672662402
 10
398.2496516207
 20
-299.2430617402
 10
395.1765931869
 20
-297.2128211204
 10
392.2913779885
 20
-294.8827962782
 10
389.6029095474
 20
-292.2602154883
 10
387.119511866
 20
-289.3531586895
 10
384.8488504024
 20
-286.1706304817
 10
382.7979531438
 20
-282.7224597469
 10
380.9731473856
 20
-279.0193087684
 10
379.3800860739
 20
-275.0726184803
 10
378.0236793166
 20
-270.894593252
 10
376.9081365303
 20
-266.4981400546
 10
376.0368926829
 20
-261.896854766
 10
375.4126451729
 20
-257.1049582953
 10
375.0373222186
 20
-252.1372612185
 10
374.9120828582
 20
-247.0091200518
  0
ARC
  5
E6
330
1F
100
AcDbEntity
  8
0
  6
Continuous
 62
     7
370
    25
100
AcDbCircle
 10
587.6508559121
 20
-187.4440955944
 30
0.0
 40
64.0831348075938
100
AcDbArc
 50
16.3705132047
 51
40.4088802605
  0
ARC
  5
E7
330
1F
100
AcDbEntity
  8
0
  6
Continuous
 62
     7
370
    25
100
AcDbCircle
 10
510.8042777235
 20
-322.8814802329
 30
0.0
 40
61.90407690302805
100
AcDbArc
 50
257.5664923557
 51
283.0379839807
  0
ARC
  5
E8
330
1F
100
AcDbEntity
  8
0
  6
Continuous
 62
     7
370
    25
100
AcDbCircle
 10
646.1622395419
 20
-246.241630625
 30
0.0
 40
45.89988523366058
100
AcDbArc
 50
22.5194677385
 51
32.0559076508
  0
ARC
  5
E9
330
1F
100
AcDbEntity
  8
0
  6
Continuous
 62
     7
370
    25
100
AcDbCircle
 10
590.8732793755
 20
-340.7099385264
 30
0.0
 40
47.12927890652809
100
AcDbArc
 50
268.0547554467
 51
279.0074088391
  0
LWPOLYLINE
  5
EA
330
1F
100
AcDbEntity
  8
0
  6
Continuous
 62
     7
370
    25
100
AcDbPolyline
 90
       55
 70
   128
 43
0.0
 10
752.0156203812
 20
-255.6790608431
 10
752.7551079117
 20
-256.1187751219
 10
755.5838199913
 20
-258.0564414382
 10
758.2243832708
 20
-260.2899588342
 10
760.6675254435
 20
-262.8114815046
 10
762.9046643574
 20
-265.6121568563
 10
764.9279396252
 20
-268.6821437616
 10
766.7302547714
 20
-272.0106581911
 10
768.3052666952
 20
-275.5860127557
 10
769.6474488911
 20
-279.3956440899
 10
770.7520861804
 20
-283.4261721673
 10
771.6152957847
 20
-287.663444409
 10
772.2340536677
 20
-292.0925683865
 10
772.6061787299
 20
-296.6979931895
 10
772.7303644191
 20
-301.4635413683
 10
772.6061787299
 20
-306.3724712917
 10
772.2340536677
 20
-311.4075425463
 10
771.6152957847
 20
-316.551069169
 10
770.7520861804
 20
-321.7849820058
 10
769.6474488911
 20
-327.09089715
 10
768.3052666952
 20
-332.4501790624
 10
766.7302547714
 20
-337.844003687
 10
764.9279396252
 20
-343.2534268908
 10
762.9046643574
 20
-348.6594376968
 10
760.6675254435
 20
-354.0430586588
 10
758.2243832708
 20
-359.3853732396
 10
755.5838199913
 20
-364.6676201041
 10
752.7551079117
 20
-369.8712478695
 10
749.7481884199
 20
-374.9779698571
 10
746.5736245698
 20
-379.9698492594
 10
743.2425589345
 20
-384.8293569314
 10
739.7666978011
 20
-389.5394231005
 10
736.1582505848
 20
-394.0835027607
 10
732.4298876819
 20
-398.4456365059
 10
728.5947088599
 20
-402.6104991961
 10
724.666182671
 20
-406.5634653518
 10
720.658112208
 20
-410.2906471741
 10
716.5845732013
 20
-413.7789485312
 10
712.4598738474
 20
-417.0161246516
 10
708.2985034426
 20
-419.9907996096
 10
704.1150778883
 20
-422.6925221191
 10
699.9242926052
 20
-425.111810967
 10
695.7408670509
 20
-427.2401687913
 10
691.5794966461
 20
-429.0701098336
 10
687.4547972922
 20
-430.5952102193
 10
683.3812582855
 20
-431.8101168887
 10
679.3731878226
 20
-432.7105547214
 10
675.4446616336
 20
-433.2933683566
 10
671.6094828116
 20
-433.5565088816
 10
667.8811199087
 20
-433.4990513165
 10
664.2726726925
 20
-433.1211961315
 10
660.7968115591
 20
-432.4242738049
 10
657.4657459237
 20
-431.4107326518
 10
654.2911820736
 20
-430.0841266533
 10
652.0237501123
 20
-428.8888342922
  0
LWPOLYLINE
  5
EB
330
1F
100
AcDbEntity
  8
0
  6
Continuous
 62
     1
370
    25
100
AcDbPolyline
 90
       59
 70
   128
 43
0.0
 10
632.1571244728
 20
-141.5696299797
 10
634.0428166221
 20
-143.3803230552
 10
636.8652646263
 20
-146.4825890319
 10
639.4782744036
 20
-149.8635419642
 10
641.8752447037
 20
-153.5146488389
 10
644.0501169173
 20
-157.42668011
 10
645.9973961489
 20
-161.5897583698
 10
647.7121722907
 20
-165.9933644349
 10
649.1901042173
 20
-170.6263738467
 10
650.4274619326
 20
-175.4770872941
 10
651.4211160331
 20
-180.5332473426
 10
652.168569318
 20
-185.7820810232
 10
652.6679146424
 20
-191.2103348096
 10
652.9179086744
 20
-196.8042892643
 10
652.9179086744
 20
-202.5498187288
 10
652.6679146424
 20
-208.4324101489
 10
652.168569318
 20
-214.4371957751
 10
651.4211160331
 20
-220.5490206492
 10
650.4274619326
 20
-226.7524293023
 10
649.1901042173
 20
-233.0317655587
 10
647.7121722907
 20
-239.3711588515
 10
645.9973961489
 20
-245.7546033078
 10
644.0501169173
 20
-252.1659623125
 10
641.8752447037
 20
-258.589047592
 10
639.4782744036
 20
-265.0076374678
 10
636.8652646263
 20
-271.4055072721
 10
634.0428166221
 20
-277.7665023505
 10
631.0180584766
 20
-284.0745532701
 10
627.7986293063
 20
-290.3137275294
 10
624.3926581844
 20
-296.4682660579
 10
620.8087588732
 20
-302.5226105933
 10
617.05597714
 20
-308.4614766803
 10
613.1437960258
 20
-314.2698627967
 10
609.082093698
 20
-319.9330929356
 10
604.8811381829
 20
-325.4368622327
 10
600.551534681
 20
-330.7672673795
 10
596.1042202995
 20
-335.9108461672
 10
591.550432442
 20
-340.8546018187
 10
586.9016745639
 20
-345.5860470916
 10
582.1696898309
 20
-350.0932316531
 10
577.3664268746
 20
-354.3647679321
 10
572.5040253043
 20
-358.3898638178
 10
567.594764341
 20
-362.1583644807
 10
562.6510463534
 20
-365.6607253739
 10
557.6853589918
 20
-368.8881192654
 10
552.7102468704
 20
-371.832391748
 10
547.7382769942
 20
-374.4861055332
 10
542.7820097825
 20
-376.8425450111
 10
537.8539631786
 20
-378.8957613045
 10
532.9665882835
 20
-380.6405863351
 10
528.1322301725
 20
-382.0725824396
 10
523.3631008951
 20
-383.1881552952
 10
518.6712452302
 20
-383.9844885171
 10
514.0685196133
 20
-384.4595436564
 10
509.5665460377
 20
-384.6121598162
 10
505.1767041525
 20
-384.4419122053
 10
500.9100733106
 20
-383.9492611827
 10
496.7774431052
 20
-383.1354305852
 10
493.1168154563
 20
-382.1093412891
  0
LWPOLYLINE
  5
EC
330
1F
100
AcDbEntity
  8
0
  6
Continuous
 62
     1
370
    25
100
AcDbPolyline
 90
       22
 70
   128
 43
0.0
 10
474.6952735434
 20
-280.4420495056
 10
475.6111561716
 20
-275.8671252925
 10
476.9675629289
 20
-270.123026157
 10
478.5606242406
 20
-264.3370264294
 10
480.3854299988
 20
-258.5269995686
 10
482.4363272574
 20
-252.7109132613
 10
484.706988721
 20
-246.9067351312
 10
487.1903864023
 20
-241.132408401
 10
489.8788548435
 20
-235.4057880203
 10
492.7640700419
 20
-229.7445646166
 10
495.8371284757
 20
-224.166246252
 10
499.0885207623
 20
-218.6880641236
 10
502.5082001466
 20
-213.3269634435
 10
506.0855983065
 20
-208.0995091437
 10
509.8096569624
 20
-203.0218554603
 10
513.6688647564
 20
-198.109700309
 10
517.6512941305
 20
-193.3782335775
 10
521.7446355705
 20
-188.8420686863
 10
525.9362344853
 20
-184.515227384
 10
530.2131386215
 20
-180.4110941228
 10
534.5621230883
 20
-176.5423468597
 10
534.7852524556
 20
-176.3518726028
  0
LWPOLYLINE
  5
ED
330
1F
100
AcDbEntity
  8
0
  6
Continuous
 62
     1
370
    25
100
AcDbPolyline
 90
       45
 70
   128
 43
0.0
 10
649.1360061031
 20
-169.3824103804
 10
649.6265005893
 20
-171.030589378
 10
650.8625201422
 20
-175.8760707152
 10
651.8551100347
 20
-180.9267720612
 10
652.6017519928
 20
-186.1699447799
 10
653.1005599449
 20
-191.5923414307
 10
653.3502800224
 20
-197.1802634878
 10
653.3502800224
 20
-202.9195944193
 10
653.1005599449
 20
-208.7958371407
 10
652.6017519928
 20
-214.7941451944
 10
651.8551100347
 20
-220.8993723686
 10
650.8625201422
 20
-227.0960936109
 10
649.6265005893
 20
-233.3686527475
 10
648.1501597062
 20
-239.7012111492
 10
646.4372380258
 20
-246.0777629439
 10
644.4920555999
 20
-252.4822080166
 10
642.3195330731
 20
-258.898361137
 10
639.9251495358
 20
-265.3100249595
 10
637.314958329
 20
-271.7009991507
 10
634.4955554346
 20
-278.0551320977
 10
631.4740584016
 20
-284.3563787014
 10
628.2581010778
 20
-290.5888216689
 10
624.8558072685
 20
-296.736711055
 10
621.2757749307
 20
-302.7845281398
 10
617.5270392949
 20
-308.716988467
 10
613.6190781339
 20
-314.519111807
 10
609.5617590784
 20
-320.1762282356
 10
605.3653343494
 20
-325.6740602636
 10
601.0404038794
 20
-330.9987137075
 10
596.5978863361
 20
-336.1367491709
 10
592.0490138548
 20
-341.0751729178
 10
587.4052688175
 20
-345.8015098714
 10
582.6783891216
 20
-350.3038370749
 10
577.8803102276
 20
-354.5707623934
 10
573.0231519887
 20
-358.5915172885
 10
568.1191883574
 20
-362.3559378045
 10
563.1808032633
 20
-365.8545265417
 10
558.2204734905
 20
-369.0784503734
 10
553.2507287538
 20
-372.019539159
 10
548.2841228049
 20
-374.6703875956
 10
543.3332023161
 20
-377.0242758419
 10
538.4104728005
 20
-379.0752865314
 10
533.5283702127
 20
-380.8182238274
 10
528.6992264572
 20
-382.2486820047
 10
524.7696492312
 20
-383.1897146281
  0
LWPOLYLINE
  5
EE
330
1F
100
AcDbEntity
  8
0
  6
Continuous
 62
     1
370
    25
100
AcDbPolyline
 90
       41
 70
   128
 43
0.0
 10
688.5622333957
 20
-228.6620974781
 10
688.9504322123
 20
-229.6169072313
 10
690.2946427253
 20
-233.4322924181
 10
691.4009500835
 20
-237.4689089181
 10
692.2654662401
 20
-241.7125782962
 10
692.8851513538
 20
-246.1483967155
 10
693.2578401301
 20
-250.7607763848
 10
693.3822154801
 20
-255.5335212219
 10
693.2578401301
 20
-260.4498667815
 10
692.8851513538
 20
-265.4925437528
 10
692.2654662401
 20
-270.6438353751
 10
691.4009500835
 20
-275.8856538615
 10
690.2946427253
 20
-281.1995856488
 10
688.9504322123
 20
-286.5669632588
 10
687.3730389916
 20
-291.9689337385
 10
685.568010642
 20
-297.3865210173
 10
683.5416744593
 20
-302.8007019493
 10
681.3011532608
 20
-308.1924565051
 10
678.8543232389
 20
-313.542840772
 10
676.2097718139
 20
-318.8330629971
 10
673.3767923659
 20
-324.0445444228
 10
670.3653315511
 20
-329.1589801199
 10
667.1859682287
 20
-334.1584059056
 10
663.8498739474
 20
-339.0252515726
 10
660.3687628972
 20
-343.7424306189
 10
656.7548629324
 20
-348.2933752265
 10
653.0208707911
 20
-352.6620986149
 10
649.1798967774
 20
-356.8332513104
 10
645.2454410537
 20
-360.7921835016
 10
641.2313146155
 20
-364.5249967437
 10
637.1516221689
 20
-368.0185660103
 10
633.0206936425
 20
-371.2606339843
 10
628.8530374304
 20
-374.2398015474
 10
624.6632938
 20
-376.9456094312
 10
620.4661785872
 20
-379.3685524698
 10
616.2764349569
 20
-381.5001196151
 10
612.1087787447
 20
-383.3328254909
 10
607.9778502183
 20
-384.8602260726
 10
603.8981577718
 20
-386.0769694429
 10
599.8840313335
 20
-386.9787679359
 10
598.2519420401
 20
-387.2580240674
  0
ARC
  5
EF
330
1F
100
AcDbEntity
  8
0
  6
Continuous
 62
     1
370
    25
100
AcDbCircle
 10
659.8757415391
 20
-317.9547660652
 30
0.0
 40
187.2639575630791
100
AcDbArc
 50
132.1291927561
 51
167.8761843001
  0
LWPOLYLINE
  5
F0
330
1F
100
AcDbEntity
  8
0
  6
Continuous
 62
     1
370
    25
100
AcDbPolyline
 90
       47
 70
   128
 43
0.0
 10
683.5067874055
 20
-219.4048725606
 10
683.988852522
 20
-220.0550283944
 10
686.0121277899
 20
-223.1250152998
 10
687.814442936
 20
-226.4535297292
 10
689.3894548598
 20
-230.0288842939
 10
690.7316370557
 20
-233.8385156281
 10
691.836274345
 20
-237.8690437055
 10
692.6994839494
 20
-242.1063159472
 10
693.3182418324
 20
-246.5354399247
 10
693.6903668946
 20
-251.1408647277
 10
693.8145525837
 20
-255.9064129064
 10
693.6903668946
 20
-260.8153428299
 10
693.3182418324
 20
-265.8504140845
 10
692.6994839494
 20
-270.9939407072
 10
691.836274345
 20
-276.227853544
 10
690.7316370557
 20
-281.5337686882
 10
689.3894548598
 20
-286.8930506006
 10
687.814442936
 20
-292.2868752252
 10
686.0121277899
 20
-297.696298429
 10
683.988852522
 20
-303.102309235
 10
681.7517136081
 20
-308.485930197
 10
679.3085714354
 20
-313.8282447778
 10
676.668008156
 20
-319.1104916423
 10
673.8392960764
 20
-324.3141194077
 10
670.8323765846
 20
-329.4208413953
 10
667.6578127344
 20
-334.4127207976
 10
664.3267470991
 20
-339.2722284696
 10
660.8508859657
 20
-343.9822946387
 10
657.2424387494
 20
-348.5263742989
 10
653.5140758466
 20
-352.8885080441
 10
649.6788970245
 20
-357.0533707343
 10
645.7503708356
 20
-361.00633689
 10
641.7423003726
 20
-364.7335187123
 10
637.6687613659
 20
-368.2218200694
 10
633.544062012
 20
-371.4589961898
 10
629.3826916072
 20
-374.4336711478
 10
625.1992660529
 20
-377.1353936573
 10
621.0084807699
 20
-379.5546825052
 10
616.8250552156
 20
-381.6830403295
 10
612.6636848108
 20
-383.5129813718
 10
608.5389854569
 20
-385.0380817575
 10
604.4654464502
 20
-386.2529884269
 10
600.4573759872
 20
-387.1534262596
 10
596.5288497983
 20
-387.7362398948
 10
592.6936709762
 20
-387.9993804198
 10
588.9653080734
 20
-387.9419228546
 10
586.3510971109
 20
-387.7016937177
  0
ENDSEC
  0
SECTION
  2
OBJECTS
  0
DICTIONARY
  5
C
330
0
100
AcDbDictionary
281
     1
  3
ACAD_GROUP
350
D
  3
ACAD_LAYOUT
350
1A
  3
ACAD_MLINESTYLE
350
17
  3
ACAD_PLOTSETTINGS
350
19
  3
ACAD_PLOTSTYLENAME
350
E
  3
ACAD_SCALELIST
350
47
  0
DICTIONARY
  5
D
102
{ACAD_REACTORS
330
C
102
}
330
C
100
AcDbDictionary
281
     1
  0
DICTIONARY
  5
1A
102
{ACAD_REACTORS
330
C
102
}
330
C
100
AcDbDictionary
281
     1
  3
Layout1
350
1E
  3
Layout2
350
26
  3
Model
350
22
  0
DICTIONARY
  5
17
102
{ACAD_REACTORS
330
C
102
}
330
C
100
AcDbDictionary
281
     1
  3
Standard
350
18
  0
DICTIONARY
  5
19
102
{ACAD_REACTORS
330
C
102
}
330
C
100
AcDbDictionary
281
     1
  0
ACDBDICTIONARYWDFLT
  5
E
102
{ACAD_REACTORS
330
C
102
}
330
C
100
AcDbDictionary
281
     1
  3
Normal
350
F
100
AcDbDictionaryWithDefault
340
F
  0
DICTIONARY
  5
47
102
{ACAD_REACTORS
330
C
102
}
330
C
100
AcDbDictionary
281
     1
  3
A0
350
48
  3
A1
350
49
  3
A2
350
4A
  3
A3
350
4B
  3
A4
350
4C
  3
A5
350
4D
  3
A6
350
4E
  3
A7
350
4F
  3
A8
350
50
  3
A9
350
51
  3
B0
350
52
  3
B1
350
53
  3
B2
350
54
  3
B3
350
55
  3
B4
350
56
  3
B5
350
57
  3
B6
350
58
  3
B7
350
59
  3
B8
350
5A
  3
B9
350
5B
  3
C0
350
5C
  3
C1
350
5D
  3
C2
350
5E
  3
C3
350
5F
  3
C4
350
60
  3
C5
350
61
  3
C6
350
62
  3
C7
350
63
  3
C8
350
64
  3
C9
350
65
  3
D0
350
66
  3
D1
350
67
  3
D2
350
68
  0
LAYOUT
  5
1E
102
{ACAD_REACTORS
330
1A
102
}
330
1A
100
AcDbPlotSettings
  1

  2
none_device
  4

  6

 40
0.0
 41
0.0
 42
0.0
 43
0.0
 44
0.0
 45
0.0
 46
0.0
 47
0.0
 48
0.0
 49
0.0
140
0.0
141
0.0
142
1.0
143
1.0
 70
   688
 72
     1
 73
     0
 74
     5
  7

 75
    16
147
1.0
148
0.0
149
0.0
100
AcDbLayout
  1
Layout1
 70
     1
 71
     1
 10
0.0
 20
0.0
 11
420.0
 21
297.0
 12
0.0
 22
0.0
 32
0.0
 14
1.0000000000E+20
 24
1.0000000000E+20
 34
1.0000000000E+20
 15
-1.0000000000E+20
 25
-1.0000000000E+20
 35
-1.0000000000E+20
146
0.0
 13
0.0
 23
0.0
 33
0.0
 16
1.0
 26
0.0
 36
0.0
 17
0.0
 27
1.0
 37
0.0
 76
     0
330
1B
  0
LAYOUT
  5
26
102
{ACAD_REACTORS
330
1A
102
}
330
1A
100
AcDbPlotSettings
  1

  2
none_device
  4

  6

 40
0.0
 41
0.0
 42
0.0
 43
0.0
 44
0.0
 45
0.0
 46
0.0
 47
0.0
 48
0.0
 49
0.0
140
0.0
141
0.0
142
1.0
143
1.0
 70
   688
 72
     1
 73
     0
 74
     5
  7

 75
    16
147
1.0
148
0.0
149
0.0
100
AcDbLayout
  1
Layout2
 70
     1
 71
     2
 10
0.0
 20
0.0
 11
0.0
 21
0.0
 12
0.0
 22
0.0
 32
0.0
 14
0.0
 24
0.0
 34
0.0
 15
0.0
 25
0.0
 35
0.0
146
0.0
 13
0.0
 23
0.0
 33
0.0
 16
1.0
 26
0.0
 36
0.0
 17
0.0
 27
1.0
 37
0.0
 76
     0
330
23
  0
LAYOUT
  5
22
102
{ACAD_REACTORS
330
1A
102
}
330
1A
100
AcDbPlotSettings
  1

  2
none_device
  4
Letter_(8.50_x_11.00_Inches)
  6

 40
6.35
 41
6.35
 42
6.35000508
 43
6.35000508
 44
215.9
 45
279.4
 46
0.0
 47
0.0
 48
0.0
 49
0.0
140
0.0
141
0.0
142
1.0
143
1.0
 70
  1712
 72
     1
 73
     0
 74
     0
  7

 75
     0
147
1.0
148
0.0
149
0.0
100
AcDbLayout
  1
Model
 70
     1
 71
     0
 10
0.0
 20
0.0
 11
279.4
 21
215.9
 12
0.0
 22
0.0
 32
0.0
 14
0.0
 24
0.0
 34
0.0
 15
279.4
 25
215.9
 35
0.0
146
0.0
 13
0.0
 23
0.0
 33
0.0
 16
1.0
 26
0.0
 36
0.0
 17
0.0
 27
1.0
 37
0.0
 76
     0
330
1F
331
29
  0
MLINESTYLE
  5
18
102
{ACAD_REACTORS
330
17
102
}
330
17
100
AcDbMlineStyle
  2
Standard
 70
     0
  3

 62
   256
 51
90.0
 52
90.0
 71
     2
 49
0.5
 62
   256
  6
BYLAYER
 49
-0.5
 62
   256
  6
BYLAYER
  0
ACDBPLACEHOLDER
  5
F
102
{ACAD_REACTORS
330
E
102
}
330
E
  0
SCALE
  5
48
102
{ACAD_REACTORS
330
47
102
}
330
47
100
AcDbScale
 70
     0
300
1:1
140
1.0
141
1.0
290
     1
  0
SCALE
  5
49
102
{ACAD_REACTORS
330
47
102
}
330
47
100
AcDbScale
 70
     0
300
1:2
140
1.0
141
2.0
290
     0
  0
SCALE
  5
4A
102
{ACAD_REACTORS
330
47
102
}
330
47
100
AcDbScale
 70
     0
300
1:4
140
1.0
141
4.0
290
     0
  0
SCALE
  5
4B
102
{ACAD_REACTORS
330
47
102
}
330
47
100
AcDbScale
 70
     0
300
1:5
140
1.0
141
5.0
290
     0
  0
SCALE
  5
4C
102
{ACAD_REACTORS
330
47
102
}
330
47
100
AcDbScale
 70
     0
300
1:8
140
1.0
141
8.0
290
     0
  0
SCALE
  5
4D
102
{ACAD_REACTORS
330
47
102
}
330
47
100
AcDbScale
 70
     0
300
1:10
140
1.0
141
10.0
290
     0
  0
SCALE
  5
4E
102
{ACAD_REACTORS
330
47
102
}
330
47
100
AcDbScale
 70
     0
300
1:16
140
1.0
141
16.0
290
     0
  0
SCALE
  5
4F
102
{ACAD_REACTORS
330
47
102
}
330
47
100
AcDbScale
 70
     0
300
1:20
140
1.0
141
20.0
290
     0
  0
SCALE
  5
50
102
{ACAD_REACTORS
330
47
102
}
330
47
100
AcDbScale
 70
     0
300
1:30
140
1.0
141
30.0
290
     0
  0
SCALE
  5
51
102
{ACAD_REACTORS
330
47
102
}
330
47
100
AcDbScale
 70
     0
300
1:40
140
1.0
141
40.0
290
     0
  0
SCALE
  5
52
102
{ACAD_REACTORS
330
47
102
}
330
47
100
AcDbScale
 70
     0
300
1:50
140
1.0
141
50.0
290
     0
  0
SCALE
  5
53
102
{ACAD_REACTORS
330
47
102
}
330
47
100
AcDbScale
 70
     0
300
1:100
140
1.0
141
100.0
290
     0
  0
SCALE
  5
54
102
{ACAD_REACTORS
330
47
102
}
330
47
100
AcDbScale
 70
     0
300
2:1
140
2.0
141
1.0
290
     0
  0
SCALE
  5
55
102
{ACAD_REACTORS
330
47
102
}
330
47
100
AcDbScale
 70
     0
300
4:1
140
4.0
141
1.0
290
     0
  0
SCALE
  5
56
102
{ACAD_REACTORS
330
47
102
}
330
47
100
AcDbScale
 70
     0
300
8:1
140
8.0
141
1.0
290
     0
  0
SCALE
  5
57
102
{ACAD_REACTORS
330
47
102
}
330
47
100
AcDbScale
 70
     0
300
10:1
140
10.0
141
1.0
290
     0
  0
SCALE
  5
58
102
{ACAD_REACTORS
330
47
102
}
330
47
100
AcDbScale
 70
     0
300
100:1
140
100.0
141
1.0
290
     0
  0
SCALE
  5
59
102
{ACAD_REACTORS
330
47
102
}
330
47
100
AcDbScale
 70
     0
300
1/128" = 1'-0"
140
0.0078125
141
12.0
290
     0
  0
SCALE
  5
5A
102
{ACAD_REACTORS
330
47
102
}
330
47
100
AcDbScale
 70
     0
300
1/64" = 1'-0"
140
0.015625
141
12.0
290
     0
  0
SCALE
  5
5B
102
{ACAD_REACTORS
330
47
102
}
330
47
100
AcDbScale
 70
     0
300
1/32" = 1'-0"
140
0.03125
141
12.0
290
     0
  0
SCALE
  5
5C
102
{ACAD_REACTORS
330
47
102
}
330
47
100
AcDbScale
 70
     0
300
1/16" = 1'-0"
140
0.0625
141
12.0
290
     0
  0
SCALE
  5
5D
102
{ACAD_REACTORS
330
47
102
}
330
47
100
AcDbScale
 70
     0
300
3/32" = 1'-0"
140
0.09375
141
12.0
290
     0
  0
SCALE
  5
5E
102
{ACAD_REACTORS
330
47
102
}
330
47
100
AcDbScale
 70
     0
300
1/8" = 1'-0"
140
0.125
141
12.0
290
     0
  0
SCALE
  5
5F
102
{ACAD_REACTORS
330
47
102
}
330
47
100
AcDbScale
 70
     0
300
3/16" = 1'-0"
140
0.1875
141
12.0
290
     0
  0
SCALE
  5
60
102
{ACAD_REACTORS
330
47
102
}
330
47
100
AcDbScale
 70
     0
300
1/4" = 1'-0"
140
0.25
141
12.0
290
     0
  0
SCALE
  5
61
102
{ACAD_REACTORS
330
47
102
}
330
47
100
AcDbScale
 70
     0
300
3/8" = 1'-0"
140
0.375
141
12.0
290
     0
  0
SCALE
  5
62
102
{ACAD_REACTORS
330
47
102
}
330
47
100
AcDbScale
 70
     0
300
1/2" = 1'-0"
140
0.5
141
12.0
290
     0
  0
SCALE
  5
63
102
{ACAD_REACTORS
330
47
102
}
330
47
100
AcDbScale
 70
     0
300
3/4" = 1'-0"
140
0.75
141
12.0
290
     0
  0
SCALE
  5
64
102
{ACAD_REACTORS
330
47
102
}
330
47
100
AcDbScale
 70
     0
300
1" = 1'-0"
140
1.0
141
12.0
290
     0
  0
SCALE
  5
65
102
{ACAD_REACTORS
330
47
102
}
330
47
100
AcDbScale
 70
     0
300
1-1/2" = 1'-0"
140
1.5
141
12.0
290
     0
  0
SCALE
  5
66
102
{ACAD_REACTORS
330
47
102
}
330
47
100
AcDbScale
 70
     0
300
3" = 1'-0"
140
3.0
141
12.0
290
     0
  0
SCALE
  5
67
102
{ACAD_REACTORS
330
47
102
}
330
47
100
AcDbScale
 70
     0
300
6" = 1'-0"
140
6.0
141
12.0
290
     0
  0
SCALE
  5
68
102
{ACAD_REACTORS
330
47
102
}
330
47
100
AcDbScale
 70
     0
300
1'-0" = 1'-0"
140
12.0
141
12.0
290
     0
  0
ENDSEC
  0
EOF
